ISO-10303-21;
HEADER;
/* Generated by software containing ST-Developer
 * from STEP Tools, Inc. (www.steptools.com) 
 */

FILE_DESCRIPTION(
/* description */ (''),
/* implementation_level */ '2;1');

FILE_NAME(
/* name */ 'BFM Spigot 400mm with Jacob Lip v1.step',
/* time_stamp */ '2023-08-03T14:41:31+12:00',
/* author */ (''),
/* organization */ (''),
/* preprocessor_version */ 'ST-DEVELOPER v20',
/* originating_system */ 'Autodesk Translation Framework v12.9.0.99',
/* authorisation */ '');

FILE_SCHEMA (('AUTOMOTIVE_DESIGN { 1 0 10303 214 3 1 1 }'));
ENDSEC;

DATA;
#10=MECHANICAL_DESIGN_GEOMETRIC_PRESENTATION_REPRESENTATION('',(#13),#585);
#11=SHAPE_REPRESENTATION_RELATIONSHIP('SRR','None',#592,#12);
#12=ADVANCED_BREP_SHAPE_REPRESENTATION('',(#14),#584);
#13=STYLED_ITEM('',(#601),#14);
#14=MANIFOLD_SOLID_BREP('Body9',#322);
#15=CONICAL_SURFACE('',#347,203.362598246825,0.0523598775598355);
#16=CONICAL_SURFACE('',#349,201.36396871207,0.052307345039779);
#17=CONICAL_SURFACE('',#351,206.863968712071,1.13044495292682);
#18=CONICAL_SURFACE('',#355,208.875098246825,0.785029215764777);
#19=CONICAL_SURFACE('',#359,208.875098246825,0.785767111030066);
#20=CONICAL_SURFACE('',#363,208.875098246825,0.782960366933207);
#21=CONICAL_SURFACE('',#367,210.866287789885,0.785029215764838);
#22=CONICAL_SURFACE('',#371,210.875098246825,0.785767111030082);
#23=CONICAL_SURFACE('',#375,210.875098246825,0.785029215764838);
#24=CONICAL_SURFACE('',#377,212.993320791745,0.00200268481934889);
#25=CONICAL_SURFACE('',#379,210.868419038569,0.785767111030058);
#26=LINE('',#507,#44);
#27=LINE('',#511,#45);
#28=LINE('',#516,#46);
#29=LINE('',#520,#47);
#30=LINE('',#524,#48);
#31=LINE('',#528,#49);
#32=LINE('',#532,#50);
#33=LINE('',#536,#51);
#34=LINE('',#540,#52);
#35=LINE('',#544,#53);
#36=LINE('',#548,#54);
#37=LINE('',#556,#55);
#38=LINE('',#560,#56);
#39=LINE('',#564,#57);
#40=LINE('',#568,#58);
#41=LINE('',#572,#59);
#42=LINE('',#576,#60);
#43=LINE('',#580,#61);
#44=VECTOR('',#398,200.314130615741);
#45=VECTOR('',#403,206.314);
#46=VECTOR('',#410,203.362598246825);
#47=VECTOR('',#415,201.36396871207);
#48=VECTOR('',#420,206.863968712071);
#49=VECTOR('',#425,211.);
#50=VECTOR('',#430,208.875098246825);
#51=VECTOR('',#435,206.75019649365);
#52=VECTOR('',#440,208.875098246825);
#53=VECTOR('',#445,211.);
#54=VECTOR('',#450,208.875098246825);
#55=VECTOR('',#461,210.866287789885);
#56=VECTOR('',#466,213.000000000001);
#57=VECTOR('',#471,210.875098246825);
#58=VECTOR('',#476,208.75019649365);
#59=VECTOR('',#481,210.875098246825);
#60=VECTOR('',#486,212.993320791745);
#61=VECTOR('',#491,210.868419038569);
#62=CYLINDRICAL_SURFACE('',#342,200.314130615741);
#63=CYLINDRICAL_SURFACE('',#344,206.314);
#64=CYLINDRICAL_SURFACE('',#353,211.);
#65=CYLINDRICAL_SURFACE('',#357,206.75019649365);
#66=CYLINDRICAL_SURFACE('',#361,211.);
#67=CYLINDRICAL_SURFACE('',#369,213.000000000001);
#68=CYLINDRICAL_SURFACE('',#373,208.75019649365);
#69=FACE_BOUND('',#98,.T.);
#70=FACE_BOUND('',#100,.T.);
#71=FACE_BOUND('',#104,.T.);
#72=FACE_BOUND('',#115,.T.);
#73=FACE_BOUND('',#124,.T.);
#74=FACE_OUTER_BOUND('',#97,.T.);
#75=FACE_OUTER_BOUND('',#99,.T.);
#76=FACE_OUTER_BOUND('',#101,.T.);
#77=FACE_OUTER_BOUND('',#102,.T.);
#78=FACE_OUTER_BOUND('',#103,.T.);
#79=FACE_OUTER_BOUND('',#105,.T.);
#80=FACE_OUTER_BOUND('',#106,.T.);
#81=FACE_OUTER_BOUND('',#107,.T.);
#82=FACE_OUTER_BOUND('',#108,.T.);
#83=FACE_OUTER_BOUND('',#109,.T.);
#84=FACE_OUTER_BOUND('',#110,.T.);
#85=FACE_OUTER_BOUND('',#111,.T.);
#86=FACE_OUTER_BOUND('',#112,.T.);
#87=FACE_OUTER_BOUND('',#113,.T.);
#88=FACE_OUTER_BOUND('',#114,.T.);
#89=FACE_OUTER_BOUND('',#116,.T.);
#90=FACE_OUTER_BOUND('',#117,.T.);
#91=FACE_OUTER_BOUND('',#118,.T.);
#92=FACE_OUTER_BOUND('',#119,.T.);
#93=FACE_OUTER_BOUND('',#120,.T.);
#94=FACE_OUTER_BOUND('',#121,.T.);
#95=FACE_OUTER_BOUND('',#122,.T.);
#96=FACE_OUTER_BOUND('',#123,.T.);
#97=EDGE_LOOP('',(#212));
#98=EDGE_LOOP('',(#213));
#99=EDGE_LOOP('',(#214));
#100=EDGE_LOOP('',(#215));
#101=EDGE_LOOP('',(#216,#217,#218,#219));
#102=EDGE_LOOP('',(#220,#221,#222,#223));
#103=EDGE_LOOP('',(#224));
#104=EDGE_LOOP('',(#225));
#105=EDGE_LOOP('',(#226,#227,#228,#229));
#106=EDGE_LOOP('',(#230,#231,#232,#233));
#107=EDGE_LOOP('',(#234,#235,#236,#237));
#108=EDGE_LOOP('',(#238,#239,#240,#241));
#109=EDGE_LOOP('',(#242,#243,#244,#245));
#110=EDGE_LOOP('',(#246,#247,#248,#249));
#111=EDGE_LOOP('',(#250,#251,#252,#253));
#112=EDGE_LOOP('',(#254,#255,#256,#257));
#113=EDGE_LOOP('',(#258,#259,#260,#261));
#114=EDGE_LOOP('',(#262));
#115=EDGE_LOOP('',(#263));
#116=EDGE_LOOP('',(#264,#265,#266,#267));
#117=EDGE_LOOP('',(#268,#269,#270,#271));
#118=EDGE_LOOP('',(#272,#273,#274,#275));
#119=EDGE_LOOP('',(#276,#277,#278,#279));
#120=EDGE_LOOP('',(#280,#281,#282,#283));
#121=EDGE_LOOP('',(#284,#285,#286,#287));
#122=EDGE_LOOP('',(#288,#289,#290,#291));
#123=EDGE_LOOP('',(#292));
#124=EDGE_LOOP('',(#293));
#125=CIRCLE('',#337,200.418840820988);
#126=CIRCLE('',#338,200.314130615741);
#127=CIRCLE('',#340,206.314);
#128=CIRCLE('',#341,202.419262234264);
#129=CIRCLE('',#343,200.314130615741);
#130=CIRCLE('',#345,206.314);
#131=CIRCLE('',#348,204.72519649365);
#132=CIRCLE('',#350,202.727937424141);
#133=CIRCLE('',#352,211.000000000001);
#134=CIRCLE('',#354,211.);
#135=CIRCLE('',#356,206.75019649365);
#136=CIRCLE('',#358,206.75019649365);
#137=CIRCLE('',#360,211.);
#138=CIRCLE('',#362,211.);
#139=CIRCLE('',#364,206.75019649365);
#140=CIRCLE('',#366,208.732575579769);
#141=CIRCLE('',#368,213.000000000001);
#142=CIRCLE('',#370,213.000000000001);
#143=CIRCLE('',#372,208.75019649365);
#144=CIRCLE('',#374,208.75019649365);
#145=CIRCLE('',#376,213.);
#146=CIRCLE('',#378,212.986641583489);
#147=CIRCLE('',#380,208.75019649365);
#148=VERTEX_POINT('',#496);
#149=VERTEX_POINT('',#498);
#150=VERTEX_POINT('',#501);
#151=VERTEX_POINT('',#503);
#152=VERTEX_POINT('',#506);
#153=VERTEX_POINT('',#510);
#154=VERTEX_POINT('',#515);
#155=VERTEX_POINT('',#519);
#156=VERTEX_POINT('',#523);
#157=VERTEX_POINT('',#527);
#158=VERTEX_POINT('',#531);
#159=VERTEX_POINT('',#535);
#160=VERTEX_POINT('',#539);
#161=VERTEX_POINT('',#543);
#162=VERTEX_POINT('',#547);
#163=VERTEX_POINT('',#551);
#164=VERTEX_POINT('',#554);
#165=VERTEX_POINT('',#558);
#166=VERTEX_POINT('',#562);
#167=VERTEX_POINT('',#566);
#168=VERTEX_POINT('',#570);
#169=VERTEX_POINT('',#574);
#170=VERTEX_POINT('',#578);
#171=EDGE_CURVE('',#148,#148,#125,.T.);
#172=EDGE_CURVE('',#149,#149,#126,.T.);
#173=EDGE_CURVE('',#150,#150,#127,.T.);
#174=EDGE_CURVE('',#151,#151,#128,.T.);
#175=EDGE_CURVE('',#149,#152,#26,.T.);
#176=EDGE_CURVE('',#152,#152,#129,.T.);
#177=EDGE_CURVE('',#150,#153,#27,.T.);
#178=EDGE_CURVE('',#153,#153,#130,.T.);
#179=EDGE_CURVE('',#151,#154,#28,.T.);
#180=EDGE_CURVE('',#154,#154,#131,.T.);
#181=EDGE_CURVE('',#148,#155,#29,.T.);
#182=EDGE_CURVE('',#155,#155,#132,.T.);
#183=EDGE_CURVE('',#155,#156,#30,.T.);
#184=EDGE_CURVE('',#156,#156,#133,.T.);
#185=EDGE_CURVE('',#156,#157,#31,.T.);
#186=EDGE_CURVE('',#157,#157,#134,.T.);
#187=EDGE_CURVE('',#157,#158,#32,.T.);
#188=EDGE_CURVE('',#158,#158,#135,.T.);
#189=EDGE_CURVE('',#158,#159,#33,.T.);
#190=EDGE_CURVE('',#159,#159,#136,.T.);
#191=EDGE_CURVE('',#159,#160,#34,.T.);
#192=EDGE_CURVE('',#160,#160,#137,.T.);
#193=EDGE_CURVE('',#160,#161,#35,.T.);
#194=EDGE_CURVE('',#161,#161,#138,.T.);
#195=EDGE_CURVE('',#161,#162,#36,.T.);
#196=EDGE_CURVE('',#162,#162,#139,.T.);
#197=EDGE_CURVE('',#163,#163,#140,.T.);
#198=EDGE_CURVE('',#164,#164,#141,.T.);
#199=EDGE_CURVE('',#164,#163,#37,.T.);
#200=EDGE_CURVE('',#165,#165,#142,.T.);
#201=EDGE_CURVE('',#165,#164,#38,.T.);
#202=EDGE_CURVE('',#166,#166,#143,.T.);
#203=EDGE_CURVE('',#166,#165,#39,.T.);
#204=EDGE_CURVE('',#167,#167,#144,.T.);
#205=EDGE_CURVE('',#167,#166,#40,.T.);
#206=EDGE_CURVE('',#168,#168,#145,.T.);
#207=EDGE_CURVE('',#168,#167,#41,.T.);
#208=EDGE_CURVE('',#169,#169,#146,.T.);
#209=EDGE_CURVE('',#169,#168,#42,.T.);
#210=EDGE_CURVE('',#170,#170,#147,.T.);
#211=EDGE_CURVE('',#170,#169,#43,.T.);
#212=ORIENTED_EDGE('',*,*,#171,.F.);
#213=ORIENTED_EDGE('',*,*,#172,.T.);
#214=ORIENTED_EDGE('',*,*,#173,.T.);
#215=ORIENTED_EDGE('',*,*,#174,.F.);
#216=ORIENTED_EDGE('',*,*,#172,.F.);
#217=ORIENTED_EDGE('',*,*,#175,.T.);
#218=ORIENTED_EDGE('',*,*,#176,.T.);
#219=ORIENTED_EDGE('',*,*,#175,.F.);
#220=ORIENTED_EDGE('',*,*,#173,.F.);
#221=ORIENTED_EDGE('',*,*,#177,.T.);
#222=ORIENTED_EDGE('',*,*,#178,.F.);
#223=ORIENTED_EDGE('',*,*,#177,.F.);
#224=ORIENTED_EDGE('',*,*,#178,.T.);
#225=ORIENTED_EDGE('',*,*,#176,.F.);
#226=ORIENTED_EDGE('',*,*,#174,.T.);
#227=ORIENTED_EDGE('',*,*,#179,.T.);
#228=ORIENTED_EDGE('',*,*,#180,.T.);
#229=ORIENTED_EDGE('',*,*,#179,.F.);
#230=ORIENTED_EDGE('',*,*,#171,.T.);
#231=ORIENTED_EDGE('',*,*,#181,.T.);
#232=ORIENTED_EDGE('',*,*,#182,.F.);
#233=ORIENTED_EDGE('',*,*,#181,.F.);
#234=ORIENTED_EDGE('',*,*,#182,.T.);
#235=ORIENTED_EDGE('',*,*,#183,.T.);
#236=ORIENTED_EDGE('',*,*,#184,.F.);
#237=ORIENTED_EDGE('',*,*,#183,.F.);
#238=ORIENTED_EDGE('',*,*,#184,.T.);
#239=ORIENTED_EDGE('',*,*,#185,.T.);
#240=ORIENTED_EDGE('',*,*,#186,.F.);
#241=ORIENTED_EDGE('',*,*,#185,.F.);
#242=ORIENTED_EDGE('',*,*,#186,.T.);
#243=ORIENTED_EDGE('',*,*,#187,.T.);
#244=ORIENTED_EDGE('',*,*,#188,.F.);
#245=ORIENTED_EDGE('',*,*,#187,.F.);
#246=ORIENTED_EDGE('',*,*,#188,.T.);
#247=ORIENTED_EDGE('',*,*,#189,.T.);
#248=ORIENTED_EDGE('',*,*,#190,.F.);
#249=ORIENTED_EDGE('',*,*,#189,.F.);
#250=ORIENTED_EDGE('',*,*,#190,.T.);
#251=ORIENTED_EDGE('',*,*,#191,.T.);
#252=ORIENTED_EDGE('',*,*,#192,.F.);
#253=ORIENTED_EDGE('',*,*,#191,.F.);
#254=ORIENTED_EDGE('',*,*,#192,.T.);
#255=ORIENTED_EDGE('',*,*,#193,.T.);
#256=ORIENTED_EDGE('',*,*,#194,.F.);
#257=ORIENTED_EDGE('',*,*,#193,.F.);
#258=ORIENTED_EDGE('',*,*,#194,.T.);
#259=ORIENTED_EDGE('',*,*,#195,.T.);
#260=ORIENTED_EDGE('',*,*,#196,.F.);
#261=ORIENTED_EDGE('',*,*,#195,.F.);
#262=ORIENTED_EDGE('',*,*,#197,.F.);
#263=ORIENTED_EDGE('',*,*,#196,.T.);
#264=ORIENTED_EDGE('',*,*,#198,.F.);
#265=ORIENTED_EDGE('',*,*,#199,.T.);
#266=ORIENTED_EDGE('',*,*,#197,.T.);
#267=ORIENTED_EDGE('',*,*,#199,.F.);
#268=ORIENTED_EDGE('',*,*,#200,.F.);
#269=ORIENTED_EDGE('',*,*,#201,.T.);
#270=ORIENTED_EDGE('',*,*,#198,.T.);
#271=ORIENTED_EDGE('',*,*,#201,.F.);
#272=ORIENTED_EDGE('',*,*,#202,.F.);
#273=ORIENTED_EDGE('',*,*,#203,.T.);
#274=ORIENTED_EDGE('',*,*,#200,.T.);
#275=ORIENTED_EDGE('',*,*,#203,.F.);
#276=ORIENTED_EDGE('',*,*,#204,.F.);
#277=ORIENTED_EDGE('',*,*,#205,.T.);
#278=ORIENTED_EDGE('',*,*,#202,.T.);
#279=ORIENTED_EDGE('',*,*,#205,.F.);
#280=ORIENTED_EDGE('',*,*,#206,.F.);
#281=ORIENTED_EDGE('',*,*,#207,.T.);
#282=ORIENTED_EDGE('',*,*,#204,.T.);
#283=ORIENTED_EDGE('',*,*,#207,.F.);
#284=ORIENTED_EDGE('',*,*,#208,.F.);
#285=ORIENTED_EDGE('',*,*,#209,.T.);
#286=ORIENTED_EDGE('',*,*,#206,.T.);
#287=ORIENTED_EDGE('',*,*,#209,.F.);
#288=ORIENTED_EDGE('',*,*,#210,.F.);
#289=ORIENTED_EDGE('',*,*,#211,.T.);
#290=ORIENTED_EDGE('',*,*,#208,.T.);
#291=ORIENTED_EDGE('',*,*,#211,.F.);
#292=ORIENTED_EDGE('',*,*,#210,.T.);
#293=ORIENTED_EDGE('',*,*,#180,.F.);
#294=PLANE('',#336);
#295=PLANE('',#339);
#296=PLANE('',#346);
#297=PLANE('',#365);
#298=PLANE('',#381);
#299=ADVANCED_FACE('',(#74,#69),#294,.F.);
#300=ADVANCED_FACE('',(#75,#70),#295,.F.);
#301=ADVANCED_FACE('',(#76),#62,.F.);
#302=ADVANCED_FACE('',(#77),#63,.T.);
#303=ADVANCED_FACE('',(#78,#71),#296,.F.);
#304=ADVANCED_FACE('',(#79),#15,.T.);
#305=ADVANCED_FACE('',(#80),#16,.F.);
#306=ADVANCED_FACE('',(#81),#17,.F.);
#307=ADVANCED_FACE('',(#82),#64,.F.);
#308=ADVANCED_FACE('',(#83),#18,.F.);
#309=ADVANCED_FACE('',(#84),#65,.F.);
#310=ADVANCED_FACE('',(#85),#19,.F.);
#311=ADVANCED_FACE('',(#86),#66,.F.);
#312=ADVANCED_FACE('',(#87),#20,.F.);
#313=ADVANCED_FACE('',(#88,#72),#297,.T.);
#314=ADVANCED_FACE('',(#89),#21,.T.);
#315=ADVANCED_FACE('',(#90),#67,.T.);
#316=ADVANCED_FACE('',(#91),#22,.T.);
#317=ADVANCED_FACE('',(#92),#68,.T.);
#318=ADVANCED_FACE('',(#93),#23,.T.);
#319=ADVANCED_FACE('',(#94),#24,.T.);
#320=ADVANCED_FACE('',(#95),#25,.T.);
#321=ADVANCED_FACE('',(#96,#73),#298,.T.);
#322=CLOSED_SHELL('',(#299,#300,#301,#302,#303,#304,#305,#306,#307,#308,
#309,#310,#311,#312,#313,#314,#315,#316,#317,#318,#319,#320,#321));
#323=DERIVED_UNIT_ELEMENT(#325,1.);
#324=DERIVED_UNIT_ELEMENT(#587,-3.);
#325=(
MASS_UNIT()
NAMED_UNIT(*)
SI_UNIT(.KILO.,.GRAM.)
);
#326=DERIVED_UNIT((#323,#324));
#327=MEASURE_REPRESENTATION_ITEM('density measure',
POSITIVE_RATIO_MEASURE(8080.),#326);
#328=PROPERTY_DEFINITION_REPRESENTATION(#333,#330);
#329=PROPERTY_DEFINITION_REPRESENTATION(#334,#331);
#330=REPRESENTATION('material name',(#332),#584);
#331=REPRESENTATION('density',(#327),#584);
#332=DESCRIPTIVE_REPRESENTATION_ITEM('304L Stainless Steel',
'304L Stainless Steel');
#333=PROPERTY_DEFINITION('material property','material name',#594);
#334=PROPERTY_DEFINITION('material property','density of part',#594);
#335=AXIS2_PLACEMENT_3D('',#494,#382,#383);
#336=AXIS2_PLACEMENT_3D('',#495,#384,#385);
#337=AXIS2_PLACEMENT_3D('',#497,#386,#387);
#338=AXIS2_PLACEMENT_3D('',#499,#388,#389);
#339=AXIS2_PLACEMENT_3D('',#500,#390,#391);
#340=AXIS2_PLACEMENT_3D('',#502,#392,#393);
#341=AXIS2_PLACEMENT_3D('',#504,#394,#395);
#342=AXIS2_PLACEMENT_3D('',#505,#396,#397);
#343=AXIS2_PLACEMENT_3D('',#508,#399,#400);
#344=AXIS2_PLACEMENT_3D('',#509,#401,#402);
#345=AXIS2_PLACEMENT_3D('',#512,#404,#405);
#346=AXIS2_PLACEMENT_3D('',#513,#406,#407);
#347=AXIS2_PLACEMENT_3D('',#514,#408,#409);
#348=AXIS2_PLACEMENT_3D('',#517,#411,#412);
#349=AXIS2_PLACEMENT_3D('',#518,#413,#414);
#350=AXIS2_PLACEMENT_3D('',#521,#416,#417);
#351=AXIS2_PLACEMENT_3D('',#522,#418,#419);
#352=AXIS2_PLACEMENT_3D('',#525,#421,#422);
#353=AXIS2_PLACEMENT_3D('',#526,#423,#424);
#354=AXIS2_PLACEMENT_3D('',#529,#426,#427);
#355=AXIS2_PLACEMENT_3D('',#530,#428,#429);
#356=AXIS2_PLACEMENT_3D('',#533,#431,#432);
#357=AXIS2_PLACEMENT_3D('',#534,#433,#434);
#358=AXIS2_PLACEMENT_3D('',#537,#436,#437);
#359=AXIS2_PLACEMENT_3D('',#538,#438,#439);
#360=AXIS2_PLACEMENT_3D('',#541,#441,#442);
#361=AXIS2_PLACEMENT_3D('',#542,#443,#444);
#362=AXIS2_PLACEMENT_3D('',#545,#446,#447);
#363=AXIS2_PLACEMENT_3D('',#546,#448,#449);
#364=AXIS2_PLACEMENT_3D('',#549,#451,#452);
#365=AXIS2_PLACEMENT_3D('',#550,#453,#454);
#366=AXIS2_PLACEMENT_3D('',#552,#455,#456);
#367=AXIS2_PLACEMENT_3D('',#553,#457,#458);
#368=AXIS2_PLACEMENT_3D('',#555,#459,#460);
#369=AXIS2_PLACEMENT_3D('',#557,#462,#463);
#370=AXIS2_PLACEMENT_3D('',#559,#464,#465);
#371=AXIS2_PLACEMENT_3D('',#561,#467,#468);
#372=AXIS2_PLACEMENT_3D('',#563,#469,#470);
#373=AXIS2_PLACEMENT_3D('',#565,#472,#473);
#374=AXIS2_PLACEMENT_3D('',#567,#474,#475);
#375=AXIS2_PLACEMENT_3D('',#569,#477,#478);
#376=AXIS2_PLACEMENT_3D('',#571,#479,#480);
#377=AXIS2_PLACEMENT_3D('',#573,#482,#483);
#378=AXIS2_PLACEMENT_3D('',#575,#484,#485);
#379=AXIS2_PLACEMENT_3D('',#577,#487,#488);
#380=AXIS2_PLACEMENT_3D('',#579,#489,#490);
#381=AXIS2_PLACEMENT_3D('',#581,#492,#493);
#382=DIRECTION('axis',(0.,0.,1.));
#383=DIRECTION('refdir',(1.,0.,0.));
#384=DIRECTION('center_axis',(0.,-1.,0.));
#385=DIRECTION('ref_axis',(1.,0.,0.));
#386=DIRECTION('center_axis',(0.,-1.,0.));
#387=DIRECTION('ref_axis',(1.,0.,0.));
#388=DIRECTION('center_axis',(0.,-1.,0.));
#389=DIRECTION('ref_axis',(1.,0.,0.));
#390=DIRECTION('center_axis',(0.,-1.,0.));
#391=DIRECTION('ref_axis',(1.,0.,0.));
#392=DIRECTION('center_axis',(0.,1.,0.));
#393=DIRECTION('ref_axis',(1.,0.,0.));
#394=DIRECTION('center_axis',(0.,1.,0.));
#395=DIRECTION('ref_axis',(1.,0.,0.));
#396=DIRECTION('center_axis',(0.,1.,0.));
#397=DIRECTION('ref_axis',(1.,0.,0.));
#398=DIRECTION('',(0.,-1.,0.));
#399=DIRECTION('center_axis',(0.,-1.,0.));
#400=DIRECTION('ref_axis',(1.,0.,0.));
#401=DIRECTION('center_axis',(0.,1.,0.));
#402=DIRECTION('ref_axis',(1.,0.,0.));
#403=DIRECTION('',(0.,-1.,0.));
#404=DIRECTION('center_axis',(0.,-1.,0.));
#405=DIRECTION('ref_axis',(1.,0.,0.));
#406=DIRECTION('center_axis',(0.,1.,0.));
#407=DIRECTION('ref_axis',(1.,0.,0.));
#408=DIRECTION('center_axis',(0.,1.,0.));
#409=DIRECTION('ref_axis',(1.,0.,0.));
#410=DIRECTION('',(-0.0523359562429495,0.998629534754574,-6.4093061293244E-18));
#411=DIRECTION('center_axis',(0.,-1.,0.));
#412=DIRECTION('ref_axis',(1.,0.,0.));
#413=DIRECTION('center_axis',(0.,1.,0.));
#414=DIRECTION('ref_axis',(1.,0.,0.));
#415=DIRECTION('',(-0.0522834956446952,0.998632282716301,-6.40288155895106E-18));
#416=DIRECTION('center_axis',(0.,-1.,0.));
#417=DIRECTION('ref_axis',(1.,0.,0.));
#418=DIRECTION('center_axis',(0.,1.,0.));
#419=DIRECTION('ref_axis',(1.,0.,0.));
#420=DIRECTION('',(-0.904601943373691,0.426257344857003,-1.10781787445507E-16));
#421=DIRECTION('center_axis',(0.,-1.,0.));
#422=DIRECTION('ref_axis',(1.,0.,0.));
#423=DIRECTION('center_axis',(0.,-1.,0.));
#424=DIRECTION('ref_axis',(1.,0.,0.));
#425=DIRECTION('',(0.,1.,0.));
#426=DIRECTION('center_axis',(0.,-1.,0.));
#427=DIRECTION('ref_axis',(1.,0.,0.));
#428=DIRECTION('center_axis',(0.,-1.,0.));
#429=DIRECTION('ref_axis',(1.,0.,0.));
#430=DIRECTION('',(0.706845847692982,0.707367618427074,8.65636504867807E-17));
#431=DIRECTION('center_axis',(0.,-1.,0.));
#432=DIRECTION('ref_axis',(1.,0.,0.));
#433=DIRECTION('center_axis',(0.,-1.,0.));
#434=DIRECTION('ref_axis',(1.,0.,0.));
#435=DIRECTION('',(0.,1.,0.));
#436=DIRECTION('center_axis',(0.,-1.,0.));
#437=DIRECTION('ref_axis',(1.,0.,0.));
#438=DIRECTION('center_axis',(0.,1.,0.));
#439=DIRECTION('ref_axis',(1.,0.,0.));
#440=DIRECTION('',(-0.707367618427035,0.70684584769302,-8.66275489727155E-17));
#441=DIRECTION('center_axis',(0.,-1.,0.));
#442=DIRECTION('ref_axis',(1.,0.,0.));
#443=DIRECTION('center_axis',(0.,-1.,0.));
#444=DIRECTION('ref_axis',(1.,0.,0.));
#445=DIRECTION('',(0.,1.,0.));
#446=DIRECTION('center_axis',(0.,-1.,0.));
#447=DIRECTION('ref_axis',(1.,0.,0.));
#448=DIRECTION('center_axis',(0.,-1.,0.));
#449=DIRECTION('ref_axis',(1.,0.,0.));
#450=DIRECTION('',(0.7053808993686,0.708828460775909,8.63842460591438E-17));
#451=DIRECTION('center_axis',(0.,-1.,0.));
#452=DIRECTION('ref_axis',(1.,0.,0.));
#453=DIRECTION('center_axis',(0.,1.,0.));
#454=DIRECTION('ref_axis',(0.,0.,1.));
#455=DIRECTION('center_axis',(0.,-1.,0.));
#456=DIRECTION('ref_axis',(1.,0.,0.));
#457=DIRECTION('center_axis',(0.,-1.,0.));
#458=DIRECTION('ref_axis',(1.,0.,0.));
#459=DIRECTION('center_axis',(0.,-1.,0.));
#460=DIRECTION('ref_axis',(1.,0.,0.));
#461=DIRECTION('',(0.706845847693024,0.707367618427031,8.6563650486786E-17));
#462=DIRECTION('center_axis',(0.,-1.,0.));
#463=DIRECTION('ref_axis',(1.,0.,0.));
#464=DIRECTION('center_axis',(0.,-1.,0.));
#465=DIRECTION('ref_axis',(1.,0.,0.));
#466=DIRECTION('',(0.,1.,0.));
#467=DIRECTION('center_axis',(0.,1.,0.));
#468=DIRECTION('ref_axis',(1.,0.,0.));
#469=DIRECTION('center_axis',(0.,-1.,0.));
#470=DIRECTION('ref_axis',(1.,0.,0.));
#471=DIRECTION('',(-0.707367618427047,0.706845847693008,-8.6627548972717E-17));
#472=DIRECTION('center_axis',(0.,-1.,0.));
#473=DIRECTION('ref_axis',(1.,0.,0.));
#474=DIRECTION('center_axis',(0.,-1.,0.));
#475=DIRECTION('ref_axis',(1.,0.,0.));
#476=DIRECTION('',(0.,1.,0.));
#477=DIRECTION('center_axis',(0.,-1.,0.));
#478=DIRECTION('ref_axis',(1.,0.,0.));
#479=DIRECTION('center_axis',(0.,-1.,0.));
#480=DIRECTION('ref_axis',(1.,0.,0.));
#481=DIRECTION('',(0.706845847693025,0.70736761842703,8.65636504867861E-17));
#482=DIRECTION('center_axis',(0.,1.,0.));
#483=DIRECTION('ref_axis',(1.,0.,0.));
#484=DIRECTION('center_axis',(0.,-1.,0.));
#485=DIRECTION('ref_axis',(1.,0.,0.));
#486=DIRECTION('',(-0.00200268348063897,0.999997994627427,-2.4525799142698E-19));
#487=DIRECTION('center_axis',(0.,1.,0.));
#488=DIRECTION('ref_axis',(1.,0.,0.));
#489=DIRECTION('center_axis',(0.,-1.,0.));
#490=DIRECTION('ref_axis',(1.,0.,0.));
#491=DIRECTION('',(-0.70736761842703,0.706845847693025,-8.66275489727149E-17));
#492=DIRECTION('center_axis',(0.,-1.,0.));
#493=DIRECTION('ref_axis',(0.,0.,-1.));
#494=CARTESIAN_POINT('',(0.,0.,0.));
#495=CARTESIAN_POINT('Origin',(0.,8.,0.));
#496=CARTESIAN_POINT('',(-200.418840820988,8.,-2.45442291900245E-14));
#497=CARTESIAN_POINT('Origin',(0.,8.,0.));
#498=CARTESIAN_POINT('',(-200.314130615741,8.,2.45314058882552E-14));
#499=CARTESIAN_POINT('Origin',(0.,8.,0.));
#500=CARTESIAN_POINT('Origin',(0.,8.,0.));
#501=CARTESIAN_POINT('',(-206.314,8.,-2.52661779719287E-14));
#502=CARTESIAN_POINT('Origin',(0.,8.,0.));
#503=CARTESIAN_POINT('',(-202.419262234264,8.,2.47892101580961E-14));
#504=CARTESIAN_POINT('Origin',(0.,8.,0.));
#505=CARTESIAN_POINT('Origin',(0.,6.,0.));
#506=CARTESIAN_POINT('',(-200.314130615741,6.,2.45314058882552E-14));
#507=CARTESIAN_POINT('',(-200.314130615741,6.,2.45314058882552E-14));
#508=CARTESIAN_POINT('Origin',(0.,6.,0.));
#509=CARTESIAN_POINT('Origin',(0.,6.,0.));
#510=CARTESIAN_POINT('',(-206.314,6.,-2.52661779719287E-14));
#511=CARTESIAN_POINT('',(-206.314,6.,2.52661779719287E-14));
#512=CARTESIAN_POINT('Origin',(0.,6.,0.));
#513=CARTESIAN_POINT('Origin',(0.,6.,0.));
#514=CARTESIAN_POINT('Origin',(0.,25.9999233981233,0.));
#515=CARTESIAN_POINT('',(-204.72519649365,51.9998467962466,-2.50716056590761E-14));
#516=CARTESIAN_POINT('',(-203.362598246825,25.9999233981233,-2.49047355009263E-14));
#517=CARTESIAN_POINT('Origin',(0.,51.9998467962466,0.));
#518=CARTESIAN_POINT('Origin',(0.,26.0522593543663,0.));
#519=CARTESIAN_POINT('',(-202.727937424141,52.1045187087326,-2.48270119664219E-14));
#520=CARTESIAN_POINT('',(-201.36396871207,26.0522593543663,-2.46599739746845E-14));
#521=CARTESIAN_POINT('Origin',(0.,52.1045187087326,0.));
#522=CARTESIAN_POINT('Origin',(0.,54.0534573860732,0.));
#523=CARTESIAN_POINT('',(-211.000000000001,56.0023960634138,-2.58400474620092E-14));
#524=CARTESIAN_POINT('',(-206.863968712071,54.0534573860732,-2.53335297142156E-14));
#525=CARTESIAN_POINT('Origin',(0.,56.0023960634138,0.));
#526=CARTESIAN_POINT('Origin',(0.,59.4529040870968,0.));
#527=CARTESIAN_POINT('',(-211.,62.9034121107797,-2.58400474620092E-14));
#528=CARTESIAN_POINT('',(-211.,59.4529040870968,-2.58400474620092E-14));
#529=CARTESIAN_POINT('Origin',(0.,62.9034121107797,0.));
#530=CARTESIAN_POINT('Origin',(0.,65.0298823976758,0.));
#531=CARTESIAN_POINT('',(-206.75019649365,67.156352684572,-2.53195966359035E-14));
#532=CARTESIAN_POINT('',(-208.875098246825,65.0298823976758,-2.55798220489563E-14));
#533=CARTESIAN_POINT('Origin',(0.,67.156352684572,0.));
#534=CARTESIAN_POINT('Origin',(0.,70.4879357759349,0.));
#535=CARTESIAN_POINT('',(-206.75019649365,73.8195188672979,-2.53195966359035E-14));
#536=CARTESIAN_POINT('',(-206.75019649365,70.4879357759349,-2.53195966359035E-14));
#537=CARTESIAN_POINT('Origin',(0.,73.8195188672979,0.));
#538=CARTESIAN_POINT('Origin',(0.,75.9428532437391,0.));
#539=CARTESIAN_POINT('',(-211.,78.0661876201803,-2.58400474620092E-14));
#540=CARTESIAN_POINT('',(-208.875098246825,75.9428532437391,-2.55798220489563E-14));
#541=CARTESIAN_POINT('Origin',(0.,78.0661876201803,0.));
#542=CARTESIAN_POINT('Origin',(0.,81.3977299607825,0.));
#543=CARTESIAN_POINT('',(-211.,84.7292723013847,-2.58400474620092E-14));
#544=CARTESIAN_POINT('',(-211.,81.3977299607825,-2.58400474620092E-14));
#545=CARTESIAN_POINT('Origin',(0.,84.7292723013847,0.));
#546=CARTESIAN_POINT('Origin',(0.,86.8645595488157,0.));
#547=CARTESIAN_POINT('',(-206.75019649365,88.9998467962467,-2.53195966359035E-14));
#548=CARTESIAN_POINT('',(-208.875098246825,86.8645595488157,-2.55798220489564E-14));
#549=CARTESIAN_POINT('Origin',(0.,88.9998467962467,0.));
#550=CARTESIAN_POINT('Origin',(208.732575579769,88.9998467962467,0.));
#551=CARTESIAN_POINT('',(-208.732575579769,88.9998467962465,-2.55623680561547E-14));
#552=CARTESIAN_POINT('Origin',(0.,88.9998467962467,0.));
#553=CARTESIAN_POINT('Origin',(0.,86.8645595488156,0.));
#554=CARTESIAN_POINT('',(-213.000000000001,84.7292723013847,-2.60849768218387E-14));
#555=CARTESIAN_POINT('Origin',(0.,84.7292723013847,0.));
#556=CARTESIAN_POINT('',(-210.866287789885,86.8645595488156,-2.58236724389967E-14));
#557=CARTESIAN_POINT('Origin',(0.,81.3977299607825,0.));
#558=CARTESIAN_POINT('',(-213.000000000001,78.0661876201803,-2.60849768218387E-14));
#559=CARTESIAN_POINT('Origin',(0.,78.0661876201803,0.));
#560=CARTESIAN_POINT('',(-213.000000000001,81.3977299607825,-2.60849768218387E-14));
#561=CARTESIAN_POINT('Origin',(0.,75.9428532437391,0.));
#562=CARTESIAN_POINT('',(-208.75019649365,73.8195188672979,-2.5564525995733E-14));
#563=CARTESIAN_POINT('Origin',(0.,73.8195188672979,0.));
#564=CARTESIAN_POINT('',(-210.875098246825,75.9428532437391,-2.58247514087858E-14));
#565=CARTESIAN_POINT('Origin',(0.,70.4879357759349,0.));
#566=CARTESIAN_POINT('',(-208.75019649365,67.156352684572,-2.5564525995733E-14));
#567=CARTESIAN_POINT('Origin',(0.,67.156352684572,0.));
#568=CARTESIAN_POINT('',(-208.75019649365,70.4879357759349,-2.5564525995733E-14));
#569=CARTESIAN_POINT('Origin',(0.,65.0298823976761,0.));
#570=CARTESIAN_POINT('',(-213.,62.9034121107802,-2.60849768218387E-14));
#571=CARTESIAN_POINT('Origin',(0.,62.9034121107802,0.));
#572=CARTESIAN_POINT('',(-210.875098246825,65.0298823976761,-2.58247514087858E-14));
#573=CARTESIAN_POINT('Origin',(0.,59.5682895484376,0.));
#574=CARTESIAN_POINT('',(-212.986641583489,56.233166986095,-2.60833408876364E-14));
#575=CARTESIAN_POINT('Origin',(0.,56.233166986095,0.));
#576=CARTESIAN_POINT('',(-212.993320791745,59.5682895484376,-2.60841588547375E-14));
#577=CARTESIAN_POINT('Origin',(0.,54.1165068911708,0.));
#578=CARTESIAN_POINT('',(-208.75019649365,51.9998467962466,-2.5564525995733E-14));
#579=CARTESIAN_POINT('Origin',(0.,51.9998467962466,0.));
#580=CARTESIAN_POINT('',(-210.868419038569,54.1165068911708,-2.58239334416847E-14));
#581=CARTESIAN_POINT('Origin',(204.72519649365,51.9998467962466,0.));
#582=UNCERTAINTY_MEASURE_WITH_UNIT(LENGTH_MEASURE(0.01),#586,
'DISTANCE_ACCURACY_VALUE',
'Maximum model space distance between geometric entities at asserted c
onnectivities');
#583=UNCERTAINTY_MEASURE_WITH_UNIT(LENGTH_MEASURE(0.01),#586,
'DISTANCE_ACCURACY_VALUE',
'Maximum model space distance between geometric entities at asserted c
onnectivities');
#584=(
GEOMETRIC_REPRESENTATION_CONTEXT(3)
GLOBAL_UNCERTAINTY_ASSIGNED_CONTEXT((#582))
GLOBAL_UNIT_ASSIGNED_CONTEXT((#586,#588,#589))
REPRESENTATION_CONTEXT('','3D')
);
#585=(
GEOMETRIC_REPRESENTATION_CONTEXT(3)
GLOBAL_UNCERTAINTY_ASSIGNED_CONTEXT((#583))
GLOBAL_UNIT_ASSIGNED_CONTEXT((#586,#588,#589))
REPRESENTATION_CONTEXT('','3D')
);
#586=(
LENGTH_UNIT()
NAMED_UNIT(*)
SI_UNIT(.MILLI.,.METRE.)
);
#587=(
LENGTH_UNIT()
NAMED_UNIT(*)
SI_UNIT($,.METRE.)
);
#588=(
NAMED_UNIT(*)
PLANE_ANGLE_UNIT()
SI_UNIT($,.RADIAN.)
);
#589=(
NAMED_UNIT(*)
SI_UNIT($,.STERADIAN.)
SOLID_ANGLE_UNIT()
);
#590=SHAPE_DEFINITION_REPRESENTATION(#591,#592);
#591=PRODUCT_DEFINITION_SHAPE('',$,#594);
#592=SHAPE_REPRESENTATION('',(#335),#584);
#593=PRODUCT_DEFINITION_CONTEXT('part definition',#598,'design');
#594=PRODUCT_DEFINITION('BFM Spigot 400mm with Jacob Lip',
'BFM Spigot 400mm with Jacob Lip v1',#595,#593);
#595=PRODUCT_DEFINITION_FORMATION('',$,#600);
#596=PRODUCT_RELATED_PRODUCT_CATEGORY(
'BFM Spigot 400mm with Jacob Lip v1',
'BFM Spigot 400mm with Jacob Lip v1',(#600));
#597=APPLICATION_PROTOCOL_DEFINITION('international standard',
'automotive_design',2009,#598);
#598=APPLICATION_CONTEXT(
'Core Data for Automotive Mechanical Design Process');
#599=PRODUCT_CONTEXT('part definition',#598,'mechanical');
#600=PRODUCT('BFM Spigot 400mm with Jacob Lip',
'BFM Spigot 400mm with Jacob Lip v1',$,(#599));
#601=PRESENTATION_STYLE_ASSIGNMENT((#602));
#602=SURFACE_STYLE_USAGE(.BOTH.,#603);
#603=SURFACE_SIDE_STYLE('',(#604));
#604=SURFACE_STYLE_FILL_AREA(#605);
#605=FILL_AREA_STYLE('Steel - Satin',(#606));
#606=FILL_AREA_STYLE_COLOUR('Steel - Satin',#607);
#607=COLOUR_RGB('Steel - Satin',0.627450980392157,0.627450980392157,0.627450980392157);
ENDSEC;
END-ISO-10303-21;
